  0
SECTION
  2
HEADER
  9
$ACADVER
  1
AC1009
  9
$INSBASE
 10
80.36249637923408
 20
59.06493398114184
 30
0.0
  9
$EXTMIN
 10
80.36249637923408
 20
59.06493398114184
 30
0.0
  9
$EXTMAX
 10
131.4769617054131
 20
76.97658056748701
 30
0.0
  9
$LIMMIN
 10
0.0
 20
0.0
  9
$LIMMAX
 10
420.0
 20
297.0
  9
$ORTHOMODE
 70
     0
  9
$REGENMODE
 70
     0
  9
$FILLMODE
 70
     1
  9
$QTEXTMODE
 70
     0
  9
$MIRRTEXT
 70
     0
  9
$DRAGMODE
 70
     2
  9
$LTSCALE
 40
1.0
  9
$OSMODE
 70
     0
  9
$ATTMODE
 70
     1
  9
$TEXTSIZE
 40
3.5
  9
$TRACEWID
 40
0.1
  9
$TEXTSTYLE
  7
STANDARD
  9
$CLAYER
  8
0
  9
$CELTYPE
  6
BYLAYER
  9
$CECOLOR
 62
   256
  9
$DIMSCALE
 40
1.0
  9
$DIMASZ
 40
2.0
  9
$DIMEXO
 40
1.0
  9
$DIMDLI
 40
8.0
  9
$DIMRND
 40
0.0
  9
$DIMDLE
 40
0.0
  9
$DIMEXE
 40
2.0
  9
$DIMTP
 40
0.1
  9
$DIMTM
 40
0.1
  9
$DIMTXT
 40
3.5
  9
$DIMCEN
 40
2.0
  9
$DIMTSZ
 40
0.0
  9
$DIMTOL
 70
     0
  9
$DIMLIM
 70
     0
  9
$DIMTIH
 70
     0
  9
$DIMTOH
 70
     0
  9
$DIMSE1
 70
     0
  9
$DIMSE2
 70
     0
  9
$DIMTAD
 70
     1
  9
$DIMZIN
 70
     0
  9
$DIMBLK
  1

  9
$DIMASO
 70
     1
  9
$DIMSHO
 70
     0
  9
$DIMPOST
  1

  9
$DIMAPOST
  1

  9
$DIMALT
 70
     0
  9
$DIMALTD
 70
     2
  9
$DIMALTF
 40
25.39999999999999
  9
$DIMLFAC
 40
1.0
  9
$DIMTOFL
 70
     0
  9
$DIMTVP
 40
0.0
  9
$DIMTIX
 70
     0
  9
$DIMSOXD
 70
     0
  9
$DIMSAH
 70
     0
  9
$DIMBLK1
  1

  9
$DIMBLK2
  1

  9
$DIMSTYLE
  2
*UNNAMED
  9
$DIMCLRD
 70
     0
  9
$DIMCLRE
 70
     0
  9
$DIMCLRT
 70
     0
  9
$DIMTFAC
 40
1.0
  9
$DIMGAP
 40
0.09
  9
$LUNITS
 70
     2
  9
$LUPREC
 70
     3
  9
$SKETCHINC
 40
0.1
  9
$FILLETRAD
 40
20.0
  9
$AUNITS
 70
     0
  9
$AUPREC
 70
     1
  9
$MENU
  1

  9
$ELEVATION
 40
0.0
  9
$PELEVATION
 40
0.0
  9
$THICKNESS
 40
0.0
  9
$LIMCHECK
 70
     0
  9
$BLIPMODE
 70
     0
  9
$CHAMFERA
 40
0.0
  9
$CHAMFERB
 40
0.0
  9
$SKPOLY
 70
     1
  9
$TDCREATE
 40
2448544.585918865
  9
$TDUPDATE
 40
2449393.454588541
  9
$TDINDWG
 40
0.0002878472
  9
$TDUSRTIMER
 40
0.0002878472
  9
$USRTIMER
 70
     1
  9
$ANGBASE
 50
0.0
  9
$ANGDIR
 70
     0
  9
$PDMODE
 70
     0
  9
$PDSIZE
 40
0.0
  9
$PLINEWID
 40
0.0
  9
$COORDS
 70
     2
  9
$SPLFRAME
 70
     0
  9
$SPLINETYPE
 70
     6
  9
$SPLINESEGS
 70
     8
  9
$ATTDIA
 70
     1
  9
$ATTREQ
 70
     1
  9
$HANDLING
 70
     0
  9
$HANDSEED
  5
52
  9
$SURFTAB1
 70
     6
  9
$SURFTAB2
 70
     6
  9
$SURFTYPE
 70
     6
  9
$SURFU
 70
     6
  9
$SURFV
 70
     6
  9
$UCSNAME
  2

  9
$UCSORG
 10
0.0
 20
0.0
 30
0.0
  9
$UCSXDIR
 10
1.0
 20
0.0
 30
0.0
  9
$UCSYDIR
 10
0.0
 20
1.0
 30
0.0
  9
$PUCSNAME
  2

  9
$PUCSORG
 10
0.0
 20
0.0
 30
0.0
  9
$PUCSXDIR
 10
1.0
 20
0.0
 30
0.0
  9
$PUCSYDIR
 10
0.0
 20
1.0
 30
0.0
  9
$USERI1
 70
     0
  9
$USERI2
 70
     3
  9
$USERI3
 70
    15
  9
$USERI4
 70
     0
  9
$USERI5
 70
     0
  9
$USERR1
 40
1.0
  9
$USERR2
 40
1.0
  9
$USERR3
 40
0.0
  9
$USERR4
 40
1.0
  9
$USERR5
 40
0.0
  9
$WORLDVIEW
 70
     1
  9
$SHADEDGE
 70
     3
  9
$SHADEDIF
 70
    70
  9
$TILEMODE
 70
     1
  9
$MAXACTVP
 70
    16
  9
$PINSBASE
 10
0.0
 20
0.0
 30
0.0
  9
$PLIMCHECK
 70
     0
  9
$PEXTMIN
 10
1.000000000000000E+20
 20
1.000000000000000E+20
 30
1.000000000000000E+20
  9
$PEXTMAX
 10
-1.000000000000000E+20
 20
-1.000000000000000E+20
 30
-1.000000000000000E+20
  9
$PLIMMIN
 10
0.0
 20
0.0
  9
$PLIMMAX
 10
12.0
 20
9.0
  9
$UNITMODE
 70
     0
  9
$VISRETAIN
 70
     0
  9
$PLINEGEN
 70
     0
  9
$PSLTSCALE
 70
     0
  9
$TREEDEPTH
 70
  3020
  9
$DWGCODEPAGE
  3
undefined
  0
ENDSEC
  0
SECTION
  2
TABLES
  0
TABLE
  2
VPORT
 70
     2
  0
VPORT
  2
*ACTIVE
 70
     0
 10
0.0
 20
0.0
 11
1.0
 21
1.0
 12
105.9197290423236
 22
79.09920534839422
 13
0.0
 23
0.0
 14
1.0
 24
1.0
 15
10.0
 25
10.0
 16
0.0
 26
0.0
 36
1.0
 17
0.0
 27
0.0
 37
0.0
 40
40.06854273450474
 41
1.275675675675675
 42
50.0
 43
0.0
 44
0.0
 50
0.0
 51
0.0
 71
     0
 72
 20000
 73
     1
 74
     0
 75
     0
 76
     0
 77
     0
 78
     0
  0
ENDTAB
  0
TABLE
  2
LTYPE
 70
     3
  0
LTYPE
  2
AUSGEZOGEN
 70
    64
  3
Solid line
 72
    65
 73
     0
 40
0.0
  0
LTYPE
  2
ITEM-STRICH
 70
    64
  3
- - - - -
 72
    65
 73
     2
 40
1.5
 49
1.2
 49
-0.3
  0
LTYPE
  2
ITEM-STRICHPUNKT
 70
    64
  3
__ . __ . __
 72
    65
 73
     4
 40
3.599999999999999
 49
2.399999999999999
 49
-0.6
 49
0.0
 49
-0.6
  0
ENDTAB
  0
TABLE
  2
LAYER
 70
     5
  0
LAYER
  2
0
 70
     0
 62
     7
  6
AUSGEZOGEN
  0
LAYER
  2
ITEM_50
 70
    64
 62
     7
  6
AUSGEZOGEN
  0
LAYER
  2
ITEM_25
 70
    64
 62
     3
  6
AUSGEZOGEN
  0
LAYER
  2
ITEM_STP
 70
    64
 62
     4
  6
ITEM-STRICHPUNKT
  0
LAYER
  2
ITEM_GSTR
 70
    64
 62
     6
  6
ITEM-STRICH
  0
ENDTAB
  0
TABLE
  2
STYLE
 70
     1
  0
STYLE
  2
STANDARD
 70
     0
 40
0.0
 41
1.0
 50
0.0
 71
     0
 42
3.5
  3
iso
  4

  0
ENDTAB
  0
TABLE
  2
VIEW
 70
     0
  0
ENDTAB
  0
TABLE
  2
UCS
 70
     0
  0
ENDTAB
  0
TABLE
  2
APPID
 70
     1
  0
APPID
  2
ACAD
 70
    64
  0
ENDTAB
  0
TABLE
  2
DIMSTYLE
 70
     0
  0
ENDTAB
  0
ENDSEC
  0
SECTION
  2
BLOCKS
  0
ENDSEC
  0
SECTION
  2
ENTITIES
  0
LINE
  8
ITEM_STP
 10
122.5211384122405
 20
68.02075727431443
 30
0.0
 11
122.5211384122405
 21
59.06493398114184
 31
0.0
  0
LINE
  8
ITEM_STP
 10
122.5211384122405
 20
68.02075727431443
 30
0.0
 11
113.5653151190679
 21
68.02075727431443
 31
0.0
  0
LINE
  8
ITEM_STP
 10
122.5211384122405
 20
68.02075727431443
 30
0.0
 11
122.5211384122405
 21
76.97658056748701
 31
0.0
  0
LINE
  8
ITEM_STP
 10
122.5211384122405
 20
68.02075727431443
 30
0.0
 11
131.4769617054131
 21
68.02075727431443
 31
0.0
  0
CIRCLE
  8
ITEM_50
 10
122.5211384122405
 20
68.02075727431443
 30
0.0
 40
7.0
  0
CIRCLE
  8
ITEM_50
 10
122.5211384122405
 20
68.02075727431443
 30
0.0
 40
3.0
  0
LINE
  8
ITEM_50
 10
121.0777627392664
 20
70.52075727431443
 30
0.0
 11
119.6343870662924
 21
68.02075727431443
 31
0.0
  0
LINE
  8
ITEM_50
 10
119.6343870662924
 20
68.02075727431443
 30
0.0
 11
121.0777627392664
 21
65.52075727431443
 31
0.0
  0
LINE
  8
ITEM_50
 10
121.0777627392664
 20
65.52075727431443
 30
0.0
 11
123.9645140852145
 21
65.52075727431443
 31
0.0
  0
LINE
  8
ITEM_50
 10
123.9645140852145
 20
65.52075727431443
 30
0.0
 11
125.4078897581886
 21
68.02075727431443
 31
0.0
  0
LINE
  8
ITEM_50
 10
125.4078897581886
 20
68.02075727431443
 30
0.0
 11
123.9645140852146
 21
70.52075727431443
 31
0.0
  0
LINE
  8
ITEM_50
 10
123.9645140852146
 20
70.52075727431443
 30
0.0
 11
121.0777627392664
 21
70.52075727431443
 31
0.0
  0
LINE
  8
ITEM_STP
 10
80.36249637923408
 20
68.0207572743176
 30
0.0
 11
110.762496379234
 21
68.0207572743176
 31
0.0
  0
LINE
  8
ITEM_50
 10
90.78638716421751
 20
72.02075727431726
 30
0.0
 11
89.76249637923409
 21
72.62075727431759
 31
0.0
  0
LINE
  8
ITEM_50
 10
90.78638716421681
 20
64.02075727431726
 30
0.0
 11
104.897496379234
 21
64.02075727431726
 31
0.0
  0
LINE
  8
ITEM_50
 10
90.78638716421681
 20
64.02075727431726
 30
0.0
 11
89.76249637923409
 21
63.4207572743176
 31
0.0
  0
LINE
  8
ITEM_25
 10
92.26249637923443
 20
71.15575727431725
 30
0.0
 11
90.78638716421751
 21
72.02075727431726
 31
0.0
  0
LINE
  8
ITEM_25
 10
92.26249637923443
 20
64.88575727431725
 30
0.0
 11
90.78638716421681
 21
64.02075727431726
 31
0.0
  0
LINE
  8
ITEM_25
 10
105.762496379234
 20
71.15575727431725
 30
0.0
 11
92.26249637923443
 21
71.15575727431725
 31
0.0
  0
LINE
  8
ITEM_25
 10
105.762496379234
 20
64.88575727431725
 30
0.0
 11
92.26249637923443
 21
64.88575727431725
 31
0.0
  0
LINE
  8
ITEM_50
 10
104.897496379234
 20
72.02075727431726
 30
0.0
 11
90.78638716421751
 21
72.02075727431726
 31
0.0
  0
LINE
  8
ITEM_50
 10
105.762496379234
 20
71.15575727431725
 30
0.0
 11
104.897496379234
 21
72.02075727431726
 31
0.0
  0
LINE
  8
ITEM_50
 10
105.762496379234
 20
68.02075727431726
 30
0.0
 11
105.762496379234
 21
71.15575727431725
 31
0.0
  0
LINE
  8
ITEM_50
 10
105.762496379234
 20
64.88575727431725
 30
0.0
 11
105.762496379234
 21
68.02075727431726
 31
0.0
  0
LINE
  8
ITEM_50
 10
104.897496379234
 20
64.02075727431726
 30
0.0
 11
105.762496379234
 21
64.88575727431725
 31
0.0
  0
LINE
  8
ITEM_50
 10
92.26249637923443
 20
64.02075727431726
 30
0.0
 11
92.26249637923443
 21
72.02075727431726
 31
0.0
  0
LINE
  8
ITEM_50
 10
104.897496379234
 20
64.02075727431726
 30
0.0
 11
104.897496379234
 21
72.02075727431726
 31
0.0
  0
LINE
  8
ITEM_GSTR
 10
90.06249637923266
 20
68.02075727431726
 30
0.0
 11
88.56249637923266
 21
71.02075727431726
 31
0.0
  0
LINE
  8
ITEM_GSTR
 10
88.56249637923266
 20
65.02075727431726
 30
0.0
 11
90.06249637923266
 21
68.02075727431726
 31
0.0
  0
LINE
  8
ITEM_GSTR
 10
85.36249637923374
 20
69.52075727431726
 30
0.0
 11
88.56249637923266
 21
69.52075727431726
 31
0.0
  0
LINE
  8
ITEM_GSTR
 10
85.36249637923374
 20
66.52075727431726
 30
0.0
 11
88.56249637923266
 21
66.52075727431726
 31
0.0
  0
LINE
  8
ITEM_GSTR
 10
88.56249637923266
 20
71.02075727431726
 30
0.0
 11
85.36249637923374
 21
71.02075727431726
 31
0.0
  0
LINE
  8
ITEM_GSTR
 10
88.56249637923266
 20
65.02075727431726
 30
0.0
 11
88.56249637923266
 21
71.02075727431726
 31
0.0
  0
LINE
  8
ITEM_GSTR
 10
85.36249637923374
 20
65.02075727431726
 30
0.0
 11
88.56249637923266
 21
65.02075727431726
 31
0.0
  0
LINE
  8
ITEM_50
 10
88.96249637923374
 20
61.0207572743176
 30
0.0
 11
88.96249637923375
 21
75.0207572743176
 31
0.0
  0
LINE
  8
ITEM_50
 10
89.76249637923409
 20
61.0207572743176
 30
0.0
 11
88.96249637923374
 21
61.0207572743176
 31
0.0
  0
LINE
  8
ITEM_50
 10
89.76249637923409
 20
75.0207572743176
 30
0.0
 11
89.76249637923409
 21
61.0207572743176
 31
0.0
  0
LINE
  8
ITEM_50
 10
88.96249637923375
 20
75.0207572743176
 30
0.0
 11
89.76249637923409
 21
75.0207572743176
 31
0.0
  0
LINE
  8
ITEM_50
 10
85.36249637923374
 20
65.0207572743176
 30
0.0
 11
85.36249637923374
 21
71.0207572743176
 31
0.0
  0
ARC
  8
ITEM_50
 10
92.36608630026887
 20
67.70398820324921
 30
0.0
 40
7.5
 50
200.9629465537418
 51
243.0114784378914
  0
ARC
  8
ITEM_50
 10
92.36608630026887
 20
68.33752634538599
 30
0.0
 40
7.5
 50
116.9885215621085
 51
159.0370534462581
  0
ENDSEC
  0
EOF
